Select Page


  • This file is in PDF format. To open it, you will need to use the application Adobe Reader.

Buy the real partition
Download tablature for free

15 other sheets are available for the piece Another brick in the wall.

Overview

Transpose from:

Title = "Another brick in the wall (part2)" Pink floyd
    Supplied by = Marcus
    His e-mail =
    type = tablature
    The tablature = ANOTHER BRICK IN THE WALL (PART TWO)
                   Pink Floyd
                   (Waters)


                   LEGEND:
                    h = 3D hammer-on
                    p = 3D pull-off
                    b = 3D bend
                    r = 3D bend release
                    / = 3D slide up / down
                   <5> = 3D natural harmonic
                   (5) = 3D artifical harmonic
                    ~ = 3D vibrato
                    tr = 3D trill


                   VERSE:
                   E | ------------------------------ ------ 5--5 5 ---- x-- --5--5 ---- ------ 5--5
                   B | ------------------------------ 5P6 6--6 ---- ---- ---- x 6--6 ---- 6--6 ------
                   G | ------------------------------ 5-7 7--7 ---- ---- x-- --7--7 ---- ------ 7--7
                   D | --0--2--3--2 0--2--3--2 ---- ---- ---- 5-7 ---- 7--7 x-- --7--7 ---- ------ 7--7
                   A | ------------------------------ ------ 5--5 5 ---- x-- --5--5 ---- ------ 5--5
                   E | ------------------------------ ------ 5--5 5 ---- x-- --5--5 ---- ------ 5--5

                                                                          repeat 2x i think

                   E | --5 ---- ------ 5--5 x 5--5 ---- 5--5 ---- -------------- --------------------
                   B | --5p6 ---- 6--6 ---- x ---- 6--6 ---- 6--6 ---------------- ------------------
                   G | --5-7 ---- 7--7 ---- x ---- 7--7 ---- 7--7 -------------- --------------------
                   D | --5-7 ---- 7--7 ---- x ---- 7--7 ---- 7--7 ---- 0--2--3--2 0--2h3 ---- ----------
                   A | --5 ---- ------ 5--5 x 5--5 ---- 5--5 ---- -------------- --------------------
                   E | --5 ---- ------ 5--5 x 5--5 ---- 5--5 ---- -------------- --------------------

                   E | ------------------------------------------------ 5 ------ ------ ---- 5--5
                   B | ------------------------------------------------ 5P6 ------ ---- ---- 6--6
                   G | ------------------------------------------------ 5-7 ------ ---- ---- 7--7
                   D | ------------------------------------------------ 5-7 ------ ---- ---- 7--7
                   A | ------------------------------------------------ 5 ------ ------ ---- 5--5
                   E | ------------------------------------------------ 5 ------ ------ ---- 5--5

                   E - x 5 ---- ---- 5 5 -------- ------ ---- 5--5 x ---- 5 ---- 5-- --------------------
                   B - x ---- 6 ---- 6 -------- 5P6 ---- ---- 6--6 x ---- 6 ---- 6 ---- ------------------
                   G - 7 x ---- ---- -------- 7 5-7 7--7 ---- ---- x ---- ---- 7 7-- --------------------
                   D - x ---- 7 ---- 7 -------- 5-7 ---- 7--7 ---- ---- 7 ---- x 7-- --------------------
                   A - x ---- ---- 5 5 5 -------- ------ ---- 5--5 x 5 ---- ---- 5-- --------------------
                   E - x 5 ---- ---- 5 5 -------- ------ ---- 5--5 x ---- 5 ---- 5-- --------------------

                   PRE-CHORUS:
                   E | -------- ------ 3 x - 3 - x - 3 ------ ---- 3--3--3--3--3 ---- ------ x 3 - 3 - x--
                   B | -------- ------ 3 x - 3 - x - 3 ------ ---- 3--3--3--3--3 ---- ------ x 3 - 3 - x--
                   G | -------- ------ x 4 - 4 - x - 4 ------ ---- 4--4--4--4--4 ---- ------ x 4 - 4 - x--
                   D | -------- ------ x 5 - 5 - x - 5 ---- ------ 5--5--5--5--5 5 ---- ------ x - 5 - x--
                   A | -------- ------ x 5 - 5 - x - 5 ---- ------ 5--5--5--5--5 5 ---- ------ x - 5 - x--
                   E | -------- ------ 3 x - 3 - x - 3 ------ ---- 3--3--3--3--3 ---- ------ x 3 - 3 - x--

                   E | --3 ---- 3--3--3--3--3 ------------------ ------ 5 5-- 5 ------ ---- 10 ---- 10-- 9
                   B | --3 ---- ---- 3--3--3--3--3 ------------------ 5P6 6--6- ----- 10 ---- ---- 10-- 9
                   G | --4 4--4--4--4--4 ------------------ ---- ---- 5-7 7-- 7 ---------------------
                   D | --5 5--5--5--5--5 ---- ---- ------------------ 5-7 7-- 7 ---------------------
                   A | --5 5--5--5--5--5 ---- ------------------ ------ 5 5-- 5 ---------------------
                   E | --3 ---- 3--3--3--3--3 ------------------ ------ 5 5-- 5 ---------------------

                                                                   CHORUS:
                                                                                  F
                   E ---- 10 ---- ---- 5 9--9 ---- 7--7--7 -------------------- ------------ 1 ------
                   B ---- 10 ---- ---- 9 to -9 8--8--8 ---- 6 -------------------- ------------ 1 ------
                   BOY WUT-------------------------------------------------- ------------ 2 ------
                   D-------------------------------------------------- ------------ 3 ------
                   AT-------------------------------------------------- ------------ 3 ------
                   E-------------------------------------------------- ------------ 1 ------

                                            VS      VS      VS      VS
                   E | --1 1 ------ ------ ------ 1 3 3 ------ ------ ------ 3 3 --- --------- 5 ------ 5--5--
                   B | --1 1 ------ ------ ------ 1 5 ------ 5 ------ ------ 5 5 --- --------- ---- 5P6 6--6--
                   G | --2 2 ------ ------ ------ 2 5 5 ------ ------ ------ 5 5 --- 5-7 --------- ---- 7--7--
                   D | 3 --3 ------ ------ ------ 3 5 5 ------ ------ ------ 5 5 --- 5-7 --------- ---- 7--7--
                   A | 3 --3 ------ ------ ------ 3 3 3 ------ ------ ------ 3 3 --- --------- 5 ------ 5--5--
                   E | --1 1 ------ ------ ------ 1 3 3 ------ ------ ------ 3 3 --- --------- 5 ------ 5--5--

                                                                                   F
                   E x ---- ---- ---- 5 5 5 ---------- ------ ---- 5--5 x 5 ---- --- -5 ------------ 1 ------
                   B x ---- ---- 6 ---- 6 ---- 6--6 5P6 ---------- ---- ---- 6 ---- 6 x ------------ 1 ------
                   G x ---- ---- 7 ---- 7 ---------- 5-7 ---- 7--7 ---- x ---- 7 --- -7 ------------ 2 ------
                   D x ---- ---- 7 ---- 7 ---------- 5-7 ---- 7--7 ---- x ---- 7 --- -7 ------------ 3 ------
                   A ---- x ---- ---- 5 5 5 ---------- ------ ---- 5--5 x 5 ---- --- -5 ------------ 3 ------
                   E x ---- ---- ---- 5 5 5 ---------- ------ ---- 5--5 x 5 ---- --- -5 ------------ 1 ------

                                            VS      VS      VS      VS
                   E | --1 1 ------ ------ ------ 1 3 3 ------ ------ ------ 3 3 --- ------- 5 ------ 5--5--
                   B | --1 1 ------ ------ ------ 1 5 ------ 5 ------ ------ 5 5 --- ------- ---- 5P6 6--6--
                   G | --2 2 ------ ------ ------ 2 5 5 ------ ------ ------ 5 5 --- 5-7 ------- ---- 7--7--
                   D | 3 --3 ------ ------ ------ 3 5 5 ------ ------ ------ 5 5 --- 5-7 ------- ---- 7--7--
                   A | 3 --3 ------ ------ ------ 3 3 3 ------ ------ ------ 3 3 --- ------- 5 ------ 5--5--
                   E | --1 1 ------ ------ ------ 1 3 3 ------ ------ ------ 3 3 --- ------- 5 ------ 5--5--

                                                                   repeat whole thing again
                                                                  before solo:
                   E ---- ---- 5--5 x 5 ---------- ------ ---- 5--5 x 5 ---- ---- 5 -----------------------
                   X B ---- ---- ---- 6--6 5P6 6--6 ---------- ---- ---- 6 ---- 6-- x ---------- ------ 13p10
                   G x ---- ---- 7--7 ---------- ---- 5-7 ---- 7--7 x ---- 7 ---- 7 ------------------- 12--
                   D ---- ---- 7--7 x ---------- ---- 5-7 ---- 7--7 x ---- 7 ---- 7 -----------------------
                   A ---- ---- 5--5 x 5 ---------- ------ ---- 5--5 x 5 ---- ---- 5 -----------------------
                   E ---- ---- 5--5 x 5 ---------- ------ ---- 5--5 x 5 ---- ---- 5 -----------------------

                   E| ------------------------------ ------------------ 10 --------------------
                   B | --10 -------------------------- 10 10--10 ---- ---------- --13b15 ---- r - 13--
                   G | ------ ---- 12b14 13--13b15 10--10 ------ ---- ------------------ 10 ----------
                   D| ------------------------------------------------- ---------------------
                   AT| ------------------------------------------------- ---------------------
                   E| ------------------------------------------------- ---------------------

                   E| ------------------------------------------------- -------------------
                   B | ---- 13 ------ ------------------------------------ 12p10 ---------------
                   G | --------------------- ---------- 109 12 ---------- ---- 12b14 9 -----------
                   D | ------------------------------------------------ --12 ---- ------- 10/12
                   AT| ------------------------------------------------- -------------------
                   E| ------------------------------------------------- -------------------

                   E| ------------------------------------------------- ---------------------
                   B | ------------ -------------- 10 10 ------ 10 ---- 10 -------- --10 ---- 12 ---- 10--
                   G | ----- --12 12p10 ------ -------------- 10 10 10 ---- ---------- 10- --- ---- 10-- 12
                   D | ----------------- ------ x 12- 12 to -12 ------------------ -------------------
                   AT| ------------------------------------------------- ---------------------
                   E| ------------------------------------------------- ---------------------

                   E | ------------------------- 13b15 ------ 13 ---- 13 ---------- --------- ---- r
                   B | ---------------------- ------------------------- x 13b15 ---- -----------
                   BOY WUT| ----------------------------- ------------------- x -------------------
                   D| ---------------- -------------------------------- x -------------------
                   AT| ------------------------------------------------- -------------------
                   E| ------------------------------------------------- -------------------

                   E| ------------------------------------------------- ------------------ 10--
                   B | ------ ------------ 13 13b15 ---------------------------- 10 ---------- ------
                   BOY WUT| ------------------------------------------------- ------ 12 --------------
                   D| ------------------------------------------------- ----------------------
                   AT| ------------------------------------------------- ----------------------
                   E| ------------------------------------------------- ----------------------

                   E| ------------------------------------------------- ---------- ----------- x
                   B | --------------------------------------------- --13p10 ------- ----------- x
                   G | --------- ---- 12 ---- 10 ---- 12b14 12p10 -------- -------------- 10B12 --12p10--
                   D | ------------------------------------- ---------- 12 -12 ---- x ------- 12p10--
                   AT| ------------------------------------------------- ----------------------
                   E| ------------------------------------------------- ----------------------

                   E| ------------------------------------------------- --------------------
                   B| ------------------------------------------------- --------------------
                   BOY WUT| ------------------------------------------------- --------------------
                   D| ------------------------------------------------- --------------------
                   A | ---- ---- 12p 12p10 / 10 8 ---- -------- ---------------------- 10p8 8 ------ ----
                   E | -------------------------------------- 10p8 ------ 10-- --10--10 ---------

                   E| ------------------------------------------------- ---------------------
                   B| ---------------------------------- -------------- 5h6p5 -----------------
                   G | -------------------------- ----------- 7 ---- 5 to -7 7p5- 5B7 ---- ---------- 7--
                   D | ---------------------- / 7 ------------------------ 7 --- ------------------
                   AT| ------------------------------------------------- ---------------------
                   E | --10p8 10 ---------------------------------------- ---- ------------------

                   E| ------------------------------------------------- --------------------
                   B | ---------- ------ 6 b2 ------------ ----------------- 13b15 ------- ---- 13b15
                   G | --x - 7P5 ------------------------------------------ -------------------
                   D| ------------------------------------------------- --------------------
                   AT| ------------------------------------------------- --------------------
                   E| ------------------------------------------------- --------------------

                   E | ---- r --------- --------------------------------- 15b17 -13p10 ----------
                   B | ------------- ------------ 13b15 13 --------------------- ---------------
                   BOY WUT| ------------------------------------------------- -------------------
                   D| ------------------------------------------------- -------------------
                   AT| ------------------------------------------------- -------------------
                   E| ------------------------------------------------- -------------------

                   E | --------------- 13 12 ---- ---- ---- r 15b17 - b2 - r - b2 - r ----- --- ---- 15b17
                   B | ---- / ---- -------------------------------------- 15 -------------------
                   BOY WUT| ------------------------------------------------- -------------------
                   D| ------------------------------------------------- -------------------
                   AT| ------------------------------------------------- -------------------
                   E| ------------------------------------------------- -------------------

                   E | ---------- ------ 18b20 18b20 20b22 -------------------- --------- ----- 20p
                   B| ---- 15 -------------------------------------------- ------------------
                   BOY WUT| ------------------------------------------------- -------------------
                   D| ------------------------------------------------- -------------------
                   AT| ------------------------------------------------- -------------------
                   E| ------------------------------------------------- -------------------

                   E | --17 ---------------------------------------- ---- 20p17 ---------------
                   B| ------------------------------------------------- -------------------
                   G | -------------- --------------------- 10 10 -------- 10-- --b --------------
                   D| ------------------------------------------------- 12 --------- --------
                   AT| ------------------------------------------------- -------------------
                   E| ------------------------------------------------- -------------------

                   E| ------------------------------------------------- ---------------------
                   B | --------------------- ---- 10 10 - x - x --------------- --------------------
                   G | ---------- ---------- 10 ---- 10 x - x - x x -------------- ---------------- 10 / h
                   D | ---------- 12 ---- ---------------------- x 12 x -------- ---- 10 ---- 10 ---- 12 / h
                   AT| ------------------------------------------------- ---------------------
                   E| ------------------------------------------------- ---------------------

                   E| ------------------------------------------------- -------------------
                   B | -------- 13 -------- ------ 12 12 10 ------------ ---------- ---------------
                   G | --12 ---- 12 ------ 12 12 -------- ------------ ----------- 10 x --- ----------
                   D | --14 ---------------------------------------- ---- 14 x ------- ---- 12 ----
                   AT| ------------------------------------------------- -------------------
                   E| ------------------------------------------------- -------------------

                   E| ------------------------------------------------- -------------------
                   B | --10--10 - x - x x ------------------ ------ x - x ------- ------------------
                   G | --10--10 - x - x x ------------------ ------ x - x ------- ------------------
                   D| -------------------- ---------------------------- 12 ------------------
                   A | ----------------------------------------------- 10 ---- ---- 8p10--10 x--
                   E| ------------------------------------------------- -------------------

                   E| -----------
                   B| -----------
                   BOY WUT| -----------
                   D| -----------
                   AT| ---- ------ 8
                   E| ------- 10--

                   - -

                   Below is the fill between the lines:
                   "Hey Teacher, leave them alone" and "All in all ..." in Another Brick
                   in the Wall pt 2. This is how DG plays on the 1994 Earls Court video:

                   Hey Teacher, leave them kids alone
                                                                       F
                   E: - 10 --- 8 10 --- ----- 10-10 --- 8 --- 8 --- --- 5 ------- 7-7-7 1- -------------
                   B: - 10 --- 8 10 --- ----- 10-10 --- 8 --- 8 --- --- 6 ------- 8-8-8 1- -------------
                   G: - 10 --- 9 10 --- ----- 10-10 --- 9 --- 9 --- --- 5 ------- 7-7-7 2- -------------
                   D: ------------------------------------------------- -3 --------------
                   AT: ------------------------------------------------- -3 --------------
                   E: ------------------------------------------------- -1 --------------

                                        VS                    dm
                   All in all it's just another brick in the wall


                   -
                   Updated January 6/98


Opinions on this transcript

add a comment

No opinion has yet been given on this transcript. Be the first to give yours !



Source link